Here are some tabs for y'all.

For general Jamie T discussion..

Moderators: Mr_Gosh, jamieontour, Kings&Queens, JamieNaz

tab spiders web

Postby Gordee » Tue Mar 23, 2010 12:56 am

hi guys i've been using bits and pieces off this thread for a while now. it's been great cheers

anyway i worked out a version of spiders web for the guitar. its not exactly the same but it works for me. any improvements are welcome

standard tuning

play this for verses
------------------------------
--3--------------------------
--------------------2--7--2
------7--2--7--2------------
-----------------------------
-----------------------------

and this for chorus

------------------------------------------ -----------------------------------------------
------------------------------------------ -----------------------------------------------
------------------------------------------ ------------------------------------------3-3
----------------5--------------------5-- -5--2--5---5--2-2--5---5--2--5--2------
--6--5--3--0-----6-6--5--3--0------ -----------------------------------------------
------------------------------------------ ----------------------------------------------
-
think thats the job. Hope someone finds it handy
Gordee
Gordee
 
Posts: 2
Joined: Fri Mar 19, 2010 1:55 pm

Previous

Return to All Things Jamie T

Who is online

Users browsing this forum: No registered users and 2 guests

cron